Shop Mobile More Submit  Join Login
About Deviant Bugor4eGMale/Russia Recent Activity
Deviant for 4 Years
Needs Core Membership
Statistics 2 Deviations 1 Comment 416 Pageviews
×

Newest Deviations

Fluttershy by Bugor4eG Fluttershy :iconbugor4eg:Bugor4eG 1 1 Fluttershy by Bugor4eG Fluttershy :iconbugor4eg:Bugor4eG 2 0

Favourites

Literature
Smile Smile Smile Tab
Smile Smile Smile
Tabbed By Spikes Mustache
[Verse 1]
E|----------------4--3---------------------------------------------
B|----4----4--6--------------4-4--6----6--4------------------------
G|3----------------------3-----------------------------------------
D|-----------------------------------------------------------------
A|-----------------------------------------------------------------
E|-----------------------------------------------------------------
  My  name is Pinkie Pie and i am here to say
E|-------------------6-----3---3-3----4---3----4--3----------3-----
B|----4--4--6----4-------------------------------------6--4-----6--
G|3----------------------------------------------------------------
D|-----------------------------------------------------------------
A|-----------------------------------------------------------------
E|-----------------------------------------------------------------
  I'm gonna make you smile and i will brighten up your
:iconSpikesMustache:SpikesMustache
:iconspikesmustache:SpikesMustache 78 24
Literature
My Little Pony Theme Tab
My Little Pony: Friendship is Magic Theme
Tabbed By : Spikes Mustache
E|-------5-----------5----------------------2----------------------
B|---7-------7---5----------3---5---3---2--------------2---3---5---
G|-------------------------------------------------4---------------
D|-----------------------------------------------------------------
A|-----------------------------------------------------------------
E|-----------------------------------------------------------------
     My  little  po- ny     My  little  po- ny     Ah--ah--ah--ah
E|-----------------------------------------------------------------
B|---3---2---3---5---3---7--7----7---7---7---5----5-----7----5-----
G|-----------------------------------------------------------------
D|-----------------------------------------------------------------
A|-----------------------------------------------------------------
E
:iconSpikesMustache:SpikesMustache
:iconspikesmustache:SpikesMustache 59 30

Watchers

Groups

This user is not currently part of any groups.

Activity


Journal

No journal entries yet.

deviantID

Bugor4eG
Russia

Comments


Add a Comment:
 
No comments have been added yet.